ISO-10303-21;
HEADER;
FILE_DESCRIPTION (( 'STEP AP214' ),
    '1' );
FILE_NAME ('BT1KF101452 FULLVAC.STEP',
    '2019-09-24T13:25:29',
    ( '' ),
    ( '' ),
    'SwSTEP 2.0',
    'SolidWorks 2017',
    '' );
FILE_SCHEMA (( 'AUTOMOTIVE_DESIGN' ));
ENDSEC;

DATA;
#1 = ORIENTED_EDGE ( 'NONE', *, *, #200, .T. ) ;
#2 = ORIENTED_EDGE ( 'NONE', *, *, #102, .T. ) ;
#3 = UNCERTAINTY_MEASURE_WITH_UNIT (LENGTH_MEASURE( 1.000000000000000100E-005 ), #7, 'distance_accuracy_value', 'NONE');
#4 = VERTEX_POINT ( 'NONE', #73 ) ;
#5 =( LENGTH_UNIT ( ) NAMED_UNIT ( * ) SI_UNIT ( .MILLI., .METRE. ) );
#6 = ORIENTED_EDGE ( 'NONE', *, *, #115, .F. ) ;
#7 =( LENGTH_UNIT ( ) NAMED_UNIT ( * ) SI_UNIT ( .MILLI., .METRE. ) );
#8 = VERTEX_POINT ( 'NONE', #26 ) ;
#9 = DIRECTION ( 'NONE',  ( 0.0000000000000000000, 0.0000000000000000000, 1.000000000000000000 ) ) ;
#10 = CARTESIAN_POINT ( 'NONE',  ( -7.000000000000000000, 0.0000000000000000000, 5.143593539448980700 ) ) ;
#11 = VERTEX_POINT ( 'NONE', #10 ) ;
#12 = AXIS2_PLACEMENT_3D ( 'NONE', #162, #190, #85 ) ;
#13 = EDGE_LOOP ( 'NONE', ( #184 ) ) ;
#14 = FACE_OUTER_BOUND ( 'NONE', #174, .T. ) ;
#15 = EDGE_LOOP ( 'NONE', ( #120 ) ) ;
#16 = AXIS2_PLACEMENT_3D ( 'NONE', #75, #204, #87 ) ;
#17 = DIRECTION ( 'NONE',  ( 0.0000000000000000000, 0.0000000000000000000, -1.000000000000000000 ) ) ;
#18 = CARTESIAN_POINT ( 'NONE',  ( 7.000000000000000000, 0.0000000000000000000, 52.00000000000000700 ) ) ;
#19 = AXIS2_PLACEMENT_3D ( 'NONE', #161, #67, #148 ) ;
#20 = PLANE ( 'NONE',  #12 ) ;
#21 = EDGE_LOOP ( 'NONE', ( #32 ) ) ;
#22 = PRESENTATION_STYLE_ASSIGNMENT (( #77 ) ) ;
#23 =( LENGTH_UNIT ( ) NAMED_UNIT ( * ) SI_UNIT ( .MILLI., .METRE. ) );
#24 = DIRECTION ( 'NONE',  ( 1.000000000000000000, 0.0000000000000000000, -0.0000000000000000000 ) ) ;
#25 = ORIENTED_EDGE ( 'NONE', *, *, #151, .T. ) ;
#26 = CARTESIAN_POINT ( 'NONE',  ( -6.099999999999999600, 0.0000000000000000000, 2.500000000000002200 ) ) ;
#27 = CYLINDRICAL_SURFACE ( 'NONE', #155, 5.000000000000000000 ) ;
#28 = AXIS2_PLACEMENT_3D ( 'NONE', #163, #116, #202 ) ;
#29 = EDGE_LOOP ( 'NONE', ( #168 ) ) ;
#30 = AXIS2_PLACEMENT_3D ( 'NONE', #40, #37, #86 ) ;
#31 = UNCERTAINTY_MEASURE_WITH_UNIT (LENGTH_MEASURE( 1.000000000000000100E-005 ), #23, 'distance_accuracy_value', 'NONE');
#32 = ORIENTED_EDGE ( 'NONE', *, *, #151, .F. ) ;
#33 = CARTESIAN_POINT ( 'NONE',  ( 0.0000000000000000000, 0.0000000000000000000, 5.143593539448980700 ) ) ;
#34 = DIRECTION ( 'NONE',  ( -1.000000000000000000, 0.0000000000000000000, 0.0000000000000000000 ) ) ;
#35 = PRESENTATION_LAYER_ASSIGNMENT (  '', '', ( #172 ) ) ;
#36 = COLOUR_RGB ( '',0.7529411764705882200, 0.7529411764705882200, 0.7529411764705882200 ) ;
#37 = DIRECTION ( 'NONE',  ( -0.0000000000000000000, -0.0000000000000000000, -1.000000000000000000 ) ) ;
#38 = CARTESIAN_POINT ( 'NONE',  ( -15.00000000000000000, 0.0000000000000000000, 3.000000000000000000 ) ) ;
#39 = FACE_OUTER_BOUND ( 'NONE', #131, .T. ) ;
#40 = CARTESIAN_POINT ( 'NONE',  ( 0.0000000000000000000, 0.0000000000000000000, 54.00000000000000000 ) ) ;
#41 = ORIENTED_EDGE ( 'NONE', *, *, #83, .F. ) ;
#42 =( NAMED_UNIT ( * ) SI_UNIT ( $, .STERADIAN. ) SOLID_ANGLE_UNIT ( ) );
#43 = EDGE_LOOP ( 'NONE', ( #206 ) ) ;
#44 = ORIENTED_EDGE ( 'NONE', *, *, #164, .F. ) ;
#45 = FACE_BOUND ( 'NONE', #79, .T. ) ;
#46 = ORIENTED_EDGE ( 'NONE', *, *, #59, .F. ) ;
#47 = SURFACE_STYLE_FILL_AREA ( #154 ) ;
#48 = CARTESIAN_POINT ( 'NONE',  ( 0.0000000000000000000, 0.0000000000000000000, 3.000000000000000000 ) ) ;
#49 = AXIS2_PLACEMENT_3D ( 'NONE', #89, #93, #139 ) ;
#50 = ADVANCED_FACE ( 'NONE', ( #39, #153 ), #110, .F. ) ;
#51 = CYLINDRICAL_SURFACE ( 'NONE', #142, 7.000000000000000000 ) ;
#52 = CARTESIAN_POINT ( 'NONE',  ( 0.0000000000000000000, 0.0000000000000000000, 54.00000000000000000 ) ) ;
#53 = SURFACE_SIDE_STYLE ('',( #55 ) ) ;
#54 = DIRECTION ( 'NONE',  ( -1.000000000000000000, 0.0000000000000000000, 0.0000000000000000000 ) ) ;
#55 = SURFACE_STYLE_FILL_AREA ( #167 ) ;
#56 = APPLICATION_CONTEXT ( 'automotive_design' ) ;
#57 = CARTESIAN_POINT ( 'NONE',  ( -7.000000000000000000, 0.0000000000000000000, 52.00000000000000700 ) ) ;
#58 = VERTEX_POINT ( 'NONE', #57 ) ;
#59 = EDGE_CURVE ( 'NONE', #11, #11, #94, .T. ) ;
#60 = APPLICATION_PROTOCOL_DEFINITION ( 'draft international standard', 'automotive_design', 1998, #211 ) ;
#61 = FACE_BOUND ( 'NONE', #97, .T. ) ;
#62 =( GEOMETRIC_REPRESENTATION_CONTEXT ( 3 ) GLOBAL_UNCERTAINTY_ASSIGNED_CONTEXT ( ( #3 ) ) GLOBAL_UNIT_ASSIGNED_CONTEXT ( ( #7, #205, #185 ) ) REPRESENTATION_CONTEXT ( 'NONE', 'WORKASPACE' ) );
#63 = CYLINDRICAL_SURFACE ( 'NONE', #30, 15.00000000000000000 ) ;
#64 = EDGE_LOOP ( 'NONE', ( #114 ) ) ;
#65 = DIRECTION ( 'NONE',  ( 0.0000000000000000000, 0.0000000000000000000, 1.000000000000000000 ) ) ;
#66 = FACE_OUTER_BOUND ( 'NONE', #64, .T. ) ;
#67 = DIRECTION ( 'NONE',  ( 0.0000000000000000000, 0.0000000000000000000, 1.000000000000000000 ) ) ;
#68 = DIRECTION ( 'NONE',  ( -0.0000000000000000000, -0.0000000000000000000, -1.000000000000000000 ) ) ;
#69 = AXIS2_PLACEMENT_3D ( 'NONE', #104, #9, #24 ) ;
#70 = CARTESIAN_POINT ( 'NONE',  ( 0.0000000000000000000, 0.0000000000000000000, 2.500000000000002200 ) ) ;
#71 = ADVANCED_FACE ( 'NONE', ( #173, #124 ), #181, .F. ) ;
#72 = DIRECTION ( 'NONE',  ( -1.000000000000000000, 0.0000000000000000000, 0.0000000000000000000 ) ) ;
#73 = CARTESIAN_POINT ( 'NONE',  ( -5.000000000000000000, 0.0000000000000000000, 52.00000000000000700 ) ) ;
#74 = EDGE_LOOP ( 'NONE', ( #2 ) ) ;
#75 = CARTESIAN_POINT ( 'NONE',  ( 0.0000000000000000000, 0.0000000000000000000, 2.500000000000002200 ) ) ;
#76 = FACE_OUTER_BOUND ( 'NONE', #194, .T. ) ;
#77 = SURFACE_STYLE_USAGE ( .BOTH. , #171 ) ;
#78 = AXIS2_PLACEMENT_3D ( 'NONE', #121, #106, #72 ) ;
#79 = EDGE_LOOP ( 'NONE', ( #46 ) ) ;
#80 = COLOUR_RGB ( '',0.7529411764705882200, 0.7529411764705882200, 0.7529411764705882200 ) ;
#81 = AXIS2_PLACEMENT_3D ( 'NONE', #70, #103, #179 ) ;
#82 = FACE_OUTER_BOUND ( 'NONE', #21, .T. ) ;
#83 = EDGE_CURVE ( 'NONE', #58, #58, #108, .T. ) ;
#84 = DIRECTION ( 'NONE',  ( -1.000000000000000000, 0.0000000000000000000, 0.0000000000000000000 ) ) ;
#85 = DIRECTION ( 'NONE',  ( 1.000000000000000000, 0.0000000000000000000, -0.0000000000000000000 ) ) ;
#86 = DIRECTION ( 'NONE',  ( -1.000000000000000000, 0.0000000000000000000, 0.0000000000000000000 ) ) ;
#87 = DIRECTION ( 'NONE',  ( -1.000000000000000000, 0.0000000000000000000, 0.0000000000000000000 ) ) ;
#88 = ADVANCED_FACE ( 'NONE', ( #137, #82 ), #27, .F. ) ;
#89 = CARTESIAN_POINT ( 'NONE',  ( 0.0000000000000000000, 0.0000000000000000000, 0.0000000000000000000 ) ) ;
#90 = VERTEX_POINT ( 'NONE', #118 ) ;
#91 = PRODUCT_CONTEXT ( 'NONE', #56, 'mechanical' ) ;
#92 = ORIENTED_EDGE ( 'NONE', *, *, #123, .T. ) ;
#93 = DIRECTION ( 'NONE',  ( 0.0000000000000000000, 0.0000000000000000000, 1.000000000000000000 ) ) ;
#94 = CIRCLE ( 'NONE', #126, 7.000000000000000000 ) ;
#95 = PRODUCT_DEFINITION_CONTEXT ( 'detailed design', #211, 'design' ) ;
#96 = FACE_BOUND ( 'NONE', #15, .T. ) ;
#97 = EDGE_LOOP ( 'NONE', ( #25 ) ) ;
#98 = FACE_OUTER_BOUND ( 'NONE', #186, .T. ) ;
#99 = DIRECTION ( 'NONE',  ( -1.000000000000000000, 0.0000000000000000000, 0.0000000000000000000 ) ) ;
#100 = DIRECTION ( 'NONE',  ( 0.0000000000000000000, 0.0000000000000000000, -1.000000000000000000 ) ) ;
#101 = ADVANCED_FACE ( 'NONE', ( #158, #45 ), #196, .T. ) ;
#102 = EDGE_CURVE ( 'NONE', #4, #4, #125, .T. ) ;
#103 = DIRECTION ( 'NONE',  ( 0.0000000000000000000, 0.0000000000000000000, 1.000000000000000000 ) ) ;
#104 = CARTESIAN_POINT ( 'NONE',  ( 5.000000000000000000, 0.0000000000000000000, 2.500000000000000000 ) ) ;
#105 = PRODUCT_DEFINITION_SHAPE ( 'NONE', 'NONE',  #175 ) ;
#106 = DIRECTION ( 'NONE',  ( -0.0000000000000000000, -0.0000000000000000000, -1.000000000000000000 ) ) ;
#107 = PRESENTATION_LAYER_ASSIGNMENT (  '', '', ( #188 ) ) ;
#108 = CIRCLE ( 'NONE', #28, 7.000000000000000000 ) ;
#109 = AXIS2_PLACEMENT_3D ( 'NONE', #144, #130, #54 ) ;
#110 = PLANE ( 'NONE',  #119 ) ;
#111 = ORIENTED_EDGE ( 'NONE', *, *, #164, .T. ) ;
#112 = VERTEX_POINT ( 'NONE', #136 ) ;
#113 = DIRECTION ( 'NONE',  ( -0.0000000000000000000, -0.0000000000000000000, -1.000000000000000000 ) ) ;
#114 = ORIENTED_EDGE ( 'NONE', *, *, #59, .T. ) ;
#115 = EDGE_CURVE ( 'NONE', #8, #8, #176, .T. ) ;
#116 = DIRECTION ( 'NONE',  ( -0.0000000000000000000, -0.0000000000000000000, -1.000000000000000000 ) ) ;
#117 =( NAMED_UNIT ( * ) PLANE_ANGLE_UNIT ( ) SI_UNIT ( $, .RADIAN. ) );
#118 = CARTESIAN_POINT ( 'NONE',  ( -15.00000000000000000, 0.0000000000000000000, 0.0000000000000000000 ) ) ;
#119 = AXIS2_PLACEMENT_3D ( 'NONE', #18, #17, #145 ) ;
#120 = ORIENTED_EDGE ( 'NONE', *, *, #200, .F. ) ;
#121 = CARTESIAN_POINT ( 'NONE',  ( 0.0000000000000000000, 0.0000000000000000000, 0.0000000000000000000 ) ) ;
#122 = PRESENTATION_STYLE_ASSIGNMENT (( #165 ) ) ;
#123 = EDGE_CURVE ( 'NONE', #90, #90, #141, .T. ) ;
#124 = FACE_OUTER_BOUND ( 'NONE', #212, .T. ) ;
#125 = CIRCLE ( 'NONE', #19, 5.000000000000000000 ) ;
#126 = AXIS2_PLACEMENT_3D ( 'NONE', #33, #65, #180 ) ;
#127 = FACE_OUTER_BOUND ( 'NONE', #13, .T. ) ;
#128 = CARTESIAN_POINT ( 'NONE',  ( 0.0000000000000000000, 0.0000000000000000000, 54.00000000000000000 ) ) ;
#129 = ADVANCED_FACE ( 'NONE', ( #96, #127 ), #20, .F. ) ;
#130 = DIRECTION ( 'NONE',  ( 0.0000000000000000000, 0.0000000000000000000, 1.000000000000000000 ) ) ;
#131 = EDGE_LOOP ( 'NONE', ( #41 ) ) ;
#132 = UNCERTAINTY_MEASURE_WITH_UNIT (LENGTH_MEASURE( 1.000000000000000100E-005 ), #5, 'distance_accuracy_value', 'NONE');
#133 = SHAPE_DEFINITION_REPRESENTATION ( #105, #210 ) ;
#134 = DIRECTION ( 'NONE',  ( -1.000000000000000000, 0.0000000000000000000, 0.0000000000000000000 ) ) ;
#135 = CARTESIAN_POINT ( 'NONE',  ( -5.000000000000000000, 0.0000000000000000000, 2.500000000000002200 ) ) ;
#136 = CARTESIAN_POINT ( 'NONE',  ( -6.099999999999999600, 0.0000000000000000000, 0.0000000000000000000 ) ) ;
#137 = FACE_OUTER_BOUND ( 'NONE', #74, .T. ) ;
#138 = PRODUCT_DEFINITION_FORMATION_WITH_SPECIFIED_SOURCE ( 'ANY', '', #147, .NOT_KNOWN. ) ;
#139 = DIRECTION ( 'NONE',  ( 1.000000000000000000, 0.0000000000000000000, 0.0000000000000000000 ) ) ;
#140 = ORIENTED_EDGE ( 'NONE', *, *, #83, .T. ) ;
#141 = CIRCLE ( 'NONE', #109, 15.00000000000000000 ) ;
#142 = AXIS2_PLACEMENT_3D ( 'NONE', #52, #203, #134 ) ;
#143 = CIRCLE ( 'NONE', #192, 15.00000000000000000 ) ;
#144 = CARTESIAN_POINT ( 'NONE',  ( 0.0000000000000000000, 0.0000000000000000000, 0.0000000000000000000 ) ) ;
#145 = DIRECTION ( 'NONE',  ( -1.000000000000000000, 0.0000000000000000000, -0.0000000000000000000 ) ) ;
#146 = MECHANICAL_DESIGN_GEOMETRIC_PRESENTATION_REPRESENTATION (  '', ( #172 ), #62 ) ;
#147 = PRODUCT ( 'BT1KF101452 FULLVAC', 'BT1KF101452 FULLVAC', '', ( #91 ) ) ;
#148 = DIRECTION ( 'NONE',  ( -1.000000000000000000, 0.0000000000000000000, 0.0000000000000000000 ) ) ;
#149 = CARTESIAN_POINT ( 'NONE',  ( 0.0000000000000000000, 0.0000000000000000000, 3.000000000000000000 ) ) ;
#150 = ADVANCED_FACE ( 'NONE', ( #66, #76 ), #51, .T. ) ;
#151 = EDGE_CURVE ( 'NONE', #169, #169, #214, .T. ) ;
#152 = PLANE ( 'NONE',  #69 ) ;
#153 = FACE_BOUND ( 'NONE', #43, .T. ) ;
#154 = FILL_AREA_STYLE ('',( #191 ) ) ;
#155 = AXIS2_PLACEMENT_3D ( 'NONE', #128, #68, #34 ) ;
#156 =( NAMED_UNIT ( * ) SI_UNIT ( $, .STERADIAN. ) SOLID_ANGLE_UNIT ( ) );
#157 = CLOSED_SHELL ( 'NONE', ( #150, #101, #50, #166, #88, #129, #189, #71 ) ) ;
#158 = FACE_OUTER_BOUND ( 'NONE', #160, .T. ) ;
#159 =( GEOMETRIC_REPRESENTATION_CONTEXT ( 3 ) GLOBAL_UNCERTAINTY_ASSIGNED_CONTEXT ( ( #31 ) ) GLOBAL_UNIT_ASSIGNED_CONTEXT ( ( #23, #187, #42 ) ) REPRESENTATION_CONTEXT ( 'NONE', 'WORKASPACE' ) );
#160 = EDGE_LOOP ( 'NONE', ( #111 ) ) ;
#161 = CARTESIAN_POINT ( 'NONE',  ( 0.0000000000000000000, 0.0000000000000000000, 52.00000000000000700 ) ) ;
#162 = CARTESIAN_POINT ( 'NONE',  ( 6.099999999999999600, 0.0000000000000000000, -1.331803394072750100E-015 ) ) ;
#163 = CARTESIAN_POINT ( 'NONE',  ( 0.0000000000000000000, 0.0000000000000000000, 52.00000000000000700 ) ) ;
#164 = EDGE_CURVE ( 'NONE', #209, #209, #143, .T. ) ;
#165 = SURFACE_STYLE_USAGE ( .BOTH. , #53 ) ;
#166 = ADVANCED_FACE ( 'NONE', ( #98, #14 ), #63, .T. ) ;
#167 = FILL_AREA_STYLE ('',( #208 ) ) ;
#168 = ORIENTED_EDGE ( 'NONE', *, *, #115, .T. ) ;
#169 = VERTEX_POINT ( 'NONE', #135 ) ;
#170 = APPLICATION_PROTOCOL_DEFINITION ( 'draft international standard', 'automotive_design', 1998, #56 ) ;
#171 = SURFACE_SIDE_STYLE ('',( #47 ) ) ;
#172 = STYLED_ITEM ( 'NONE', ( #122 ), #183 ) ;
#173 = FACE_OUTER_BOUND ( 'NONE', #29, .T. ) ;
#174 = EDGE_LOOP ( 'NONE', ( #44 ) ) ;
#175 = PRODUCT_DEFINITION ( 'UNKNOWN', '', #138, #95 ) ;
#176 = CIRCLE ( 'NONE', #81, 6.099999999999999600 ) ;
#177 = EDGE_LOOP ( 'NONE', ( #6 ) ) ;
#178 = CIRCLE ( 'NONE', #78, 6.099999999999999600 ) ;
#179 = DIRECTION ( 'NONE',  ( -1.000000000000000000, 0.0000000000000000000, 0.0000000000000000000 ) ) ;
#180 = DIRECTION ( 'NONE',  ( -1.000000000000000000, 0.0000000000000000000, 0.0000000000000000000 ) ) ;
#181 = CYLINDRICAL_SURFACE ( 'NONE', #195, 6.099999999999999600 ) ;
#182 =( GEOMETRIC_REPRESENTATION_CONTEXT ( 3 ) GLOBAL_UNCERTAINTY_ASSIGNED_CONTEXT ( ( #132 ) ) GLOBAL_UNIT_ASSIGNED_CONTEXT ( ( #5, #117, #156 ) ) REPRESENTATION_CONTEXT ( 'NONE', 'WORKASPACE' ) );
#183 = MANIFOLD_SOLID_BREP ( '1', #157 ) ;
#184 = ORIENTED_EDGE ( 'NONE', *, *, #123, .F. ) ;
#185 =( NAMED_UNIT ( * ) SI_UNIT ( $, .STERADIAN. ) SOLID_ANGLE_UNIT ( ) );
#186 = EDGE_LOOP ( 'NONE', ( #92 ) ) ;
#187 =( NAMED_UNIT ( * ) PLANE_ANGLE_UNIT ( ) SI_UNIT ( $, .RADIAN. ) );
#188 = STYLED_ITEM ( 'NONE', ( #22 ), #210 ) ;
#189 = ADVANCED_FACE ( 'NONE', ( #61, #197 ), #152, .F. ) ;
#190 = DIRECTION ( 'NONE',  ( 0.0000000000000000000, 0.0000000000000000000, 1.000000000000000000 ) ) ;
#191 = FILL_AREA_STYLE_COLOUR ( '', #36 ) ;
#192 = AXIS2_PLACEMENT_3D ( 'NONE', #149, #207, #193 ) ;
#193 = DIRECTION ( 'NONE',  ( -1.000000000000000000, 0.0000000000000000000, 0.0000000000000000000 ) ) ;
#194 = EDGE_LOOP ( 'NONE', ( #140 ) ) ;
#195 = AXIS2_PLACEMENT_3D ( 'NONE', #201, #113, #99 ) ;
#196 = CONICAL_SURFACE ( 'NONE', #213, 15.00000000000000000, 1.308996938995750100 ) ;
#197 = FACE_OUTER_BOUND ( 'NONE', #177, .T. ) ;
#198 = PRODUCT_RELATED_PRODUCT_CATEGORY ( 'part', '', ( #147 ) ) ;
#199 = MECHANICAL_DESIGN_GEOMETRIC_PRESENTATION_REPRESENTATION (  '', ( #188 ), #182 ) ;
#200 = EDGE_CURVE ( 'NONE', #112, #112, #178, .T. ) ;
#201 = CARTESIAN_POINT ( 'NONE',  ( 0.0000000000000000000, 0.0000000000000000000, 54.00000000000000000 ) ) ;
#202 = DIRECTION ( 'NONE',  ( -1.000000000000000000, 0.0000000000000000000, 0.0000000000000000000 ) ) ;
#203 = DIRECTION ( 'NONE',  ( -0.0000000000000000000, -0.0000000000000000000, -1.000000000000000000 ) ) ;
#204 = DIRECTION ( 'NONE',  ( 0.0000000000000000000, 0.0000000000000000000, 1.000000000000000000 ) ) ;
#205 =( NAMED_UNIT ( * ) PLANE_ANGLE_UNIT ( ) SI_UNIT ( $, .RADIAN. ) );
#206 = ORIENTED_EDGE ( 'NONE', *, *, #102, .F. ) ;
#207 = DIRECTION ( 'NONE',  ( -0.0000000000000000000, -0.0000000000000000000, 1.000000000000000000 ) ) ;
#208 = FILL_AREA_STYLE_COLOUR ( '', #80 ) ;
#209 = VERTEX_POINT ( 'NONE', #38 ) ;
#210 = ADVANCED_BREP_SHAPE_REPRESENTATION ( 'BT1KF101452 FULLVAC', ( #183, #49 ), #159 ) ;
#211 = APPLICATION_CONTEXT ( 'automotive_design' ) ;
#212 = EDGE_LOOP ( 'NONE', ( #1 ) ) ;
#213 = AXIS2_PLACEMENT_3D ( 'NONE', #48, #100, #84 ) ;
#214 = CIRCLE ( 'NONE', #16, 5.000000000000000000 ) ;
ENDSEC;
END-ISO-10303-21;
